arrow down
  • Artists: 67
  • Albums: 164
  • Songs:  449
  • Art:  67
  • Alb: 164
  • Sng: 449
A B C D E F G H I J K L M N O P Q R S T U V W X Y Z #
A B C D E F G H I J K L M N
O P Q R S T U V W X Y Z #
muscol-alph-back-btn-arrow-head
A . . . . . . Z
A B C D
E F G H
I J K L
M N O P Q
R S T U V
W X Y Z #
0:00 / 4:25
Music:
preferences - open
font typeface
accidentals

Lyrics and Chords

6
8
slowly and steadily Intro: Am | C | D | F | Am | E | Am | E Verse 1: Am C D F There is a house in New Orleans, Am C E They call it Rising Sun. Am C D F And it's been the ruin of many a poor boy, Am E Am -> And God, I know I'm one. [Instrumental 1] = [Intro] Verse 2: Am C D F My mother was a tailor, Am C E She sewed my new blue jeans. Am C D F My father was a gambling man Am E Am -> Down in New Orleans. [Instrumental 1] Verse 3: Am C D F And the only thing a gambler needs Am C E Is a suitcase and a trunk. Am C D F And the only time he is satisfied Am E Am -> Is when he's on a drunk. [Instrumental 1] Instrumental 2: Am | C | D | F | Am | C | E | E Am | C | D | F | Am | E | Am -> [Instrumental 1] Verse 4: Am C D F Oh mother, tell your children Am C E Not to do what I have done. Am C D F Spend your lives in sin and misery Am E Am -> In the House of a Rising sun. [Instrumental 1] Verse 5: Am C D F Well I've got one foot on the platform, Am C E The other foot on the train. Am C D F I'm going back to New Orleans Am E Am -> To wear that ball and chain. [Instrumental 1] [Verse 6] = [Verse 1] Coda: Am | C | D | F | Am | E | Am F | Am - x6

Key

key
Am
original
key
Am
A#m G#m
transpose
capo
on
0 fret
not in use
C
C#
D
D#
E
F
F#
G
G#
A
A#
B

Chord Fingerings

FPICK:

Tablatures

For original key Am only:

Verse pt.1:
e|-------0-----|-------0-----
B|-----1-------|-----1---1---
G|---2---------|---0---------
D|-------------------------2-
A|-0-------0-2-|-3-----------
E|-------------|-------------
e|-------1-----|-------1-----
B|-----3---3---|-----1---1---
G|---2-------2-|---2-------2-
D|-0-----------|-3-----------
E|-------------|-------------
e|-------0-----|-------0-----
B|-----1---1---|-----1---1---
G|---2-------2-|---0-------0-
A|-0-----------|-3-----------
E|-------------|-------------
e|-------0-----|-------0-----
B|-----0---0---|-----0---0---
G|---1-------1-|---1-------1-
D|---------------2-----------
E|-0-----------|-------------
Intro, Verse pt.2:
e|-------0-----|-------0-----
B|-----1-------|-----1---1---
G|---2---------|---0---------
D|-------------------------2-
A|-0-------0-2-|-3-----------
E|-------------|-------------
e|-------1-----|-------1-----
B|-----3---3---|-----1---1---
G|---2-------2-|---2-------2-
D|-0-----------|-3-----------
E|-------------|-------------
e|-------0-----|-------0-----
B|-----1---1---|-----0---0---
G|---2-------2-|---1-------1-
A|-0-----------|-2-----------
E|-------------|-------------
e|-------0-----|-------0-----
B|-----1---1---|-----0---0---
G|---2-------2-|---1-------1-
A|-0-----------|-------------
E|-------------|-0-----------

Add comment