• Artists: 46
  • Albums:  99
  • Songs:  250
A B C D E F G H I J K L M N O P Q R S T U V W X Y Z #
A B C D E F G H I J K L M N
O P Q R S T U V W X Y Z #
A . . . . . . Z
A B C D
E F G H
I J K L
M N O P Q
R S T U V
W X Y Z #
0:00 / 2:4
preferences - open
font typeface

Lyrics and Chords

Intro:
F#m | F#m | F#m | F#m7
D | Em/D | D | D/C#
E/B | D/A | E/G#

or [Riff]

Verse 1:
A
I've just seen a face, I can't
    A
Forget the time or place where we
      F#m
Just met. She's just the girl for me
    F#m
And I want all the world to see
       D
We've met.
      E       A
Mm-mm-mm m'mm-mm

Verse 2:
 A
Had it been another day
    A
I might have looked the other way
    F#m
And I'd have never been aware.
    F#m
But as it is I'll dream of her
   D
Tonight.
       E       A
Da-da-da da'n'da.

Chorus:
 E                 D
Falling, yes I am falling,
               A
And she keeps calling
D           A
  Me back again.

Verse 3:
A
I have never known the like
     A
Of this, I've been alone and I
      F#m
Have missed things and kept out of sight
    F#m
But other girls were never quite
       D
Like this,
       E       A
Da-da-da da'n'da.

[Chorus]

Instrumental:
A | A | F#m | F#m | D | E A

[Chorus]

[Verse 4] = [Verse 1]

[Chorus] (x2)

Coda:
E                      D
Oh, falling, yes I am falling,
               A
And she keeps calling
D           D | D/C# E/B | D/A E/G# | A
  Me back again.

Key

key
A
original
key
A
A# G#
transpose
capo
on
0 fret
not in use
C
C#
D
D#
E
F
F#
G
G#
A
A#
B

Chord Fingerings

Tablatures

For original key A only:

Riff:
A|-----
E|-5-4-
e|---2---2---2-
B|-------------
G|-2---2---2---
e|---5---5---5-
B|-------------
G|-6---6---6---
e|----9----9----9-
B|----------------
G|-11---11---11---
e|----14----14----14-
B|-------------------
G|-14----14----14----
e|----10----10----10-
B|-------------------
G|-11----11----11----
e|----12----12----12-
B|-------------------
G|-12----12----12----
e|----14----14----14-
B|-------------------
G|-14----14----14----
e|----14----14----14-
B|-------------------
G|-14----14----14----
e|----12----12----12-
B|-------------------
G|-13----13----13----
e|----10----10----10-
B|-------------------
G|-11----11----11----

Add comment