arrow down
  • Artists: 96
  • Albums: 229
  • Songs:  581
  • Art:  96
  • Alb: 229
  • Sng: 581
A B C D E F G H I J K L M N O P Q R S T U V W X Y Z #
A B C D E F G H I J K L M N
O P Q R S T U V W X Y Z #
muscol-alph-back-btn-arrow-head
A . . . . . . Z
A B C D
E F G H
I J K L
M N O P Q
R S T U V
W X Y Z #
0:00 / 5:40
preferences - open
font typeface
accidentals

Lyrics and Chords

The song picked up by:   Alan Robinson
[Intro] =
[Riff 1] (x2) [Riff 2] (x2) [Riff 3]

[Solo]

Verse 1:
C/G                         D   Dsus2 D
  So, so you think you can tell
             Am   Asus2 Am
Heaven from Hell,
                 G(v2)
Blue sky's from pain.
                      D    Dsus2 D
Can you tell a green field
                   C/G
From a cold steel rail?
          Cmaj9 Am
a smile from a veil?
                      G(v2)
Do you think you can tell?

Verse 2:
                          C/G
And did they get you to trade
                  D     Dsus2 D
Your heroes for ghosts?
                Am   Asus2 Am
Hot ashes for trees?
               G(v2)
Hot air for a cool breeze?
                   D     Dsus2 D
Cold comfort for change?
                C/G
And did you exchange
               Cmaj9   Am
a walk on part in the war
                      G(v2)
For a lead role in a cage?

[Instrumental] = [Intro]

Chorus:
C/G                                D    Dsus2 D
  How I wish, how I wish you were here.
            Am
We're just two lost souls
Swimming in a fish bowl,
G(v2)
  Year after year,
D
  Running over the same old ground.
C/G
  And how we found
         Cmaj9 Am
The same old  fears.
               G(v2)
Wish you were here.

[Coda] = [Intro]
Live PULSE 1994
David Gilmour live unplugged

Key

key
G
original
key
G
G# F#
transpose
capo
on
0 fret
not in use
C
C#
D
D#
E
F
F#
G
G#
A
A#
B

Chord Fingerings

Tablatures

For original key G only:

Riff 1:
e|---------3-|---------3---
B|---------3-|---------3---
G|---------0-|---0-----0---
D|-----0-2-2-|-2---2-0-0---
A|-0/2-----2-|---------2---
E|---------0-|---------3-3-
Riff 2:
e|---------3-|---------3-
B|---------3-|---------3-
G|---------0-|---------2-
D|-----0-2-2-|-2-0-----2-
A|-0/2-----2-|-----2-0-0-
E|---------0-|---------0-
Riff 3:
e|---------3-|---3-
B|---------3-|---3-
G|---------0-|---0-
D|-----0---0-|---0-
A|-0/2-----2-|---2-
E|-------3-3-|-3-3-
Solo:
e|-----------------------------
B|-----3-5---3-----------------
G|-2/4-----4---4/2/0-----------
D|-------------------0-----0-0-
A|---------------------1/2-----
E|-----------------------------
e|-3/5--3----------------------------
B|-3/5--3---3/5--3-0---3/5--3/0------
G|----------2/4--2-0---2/4--2/0------
D|-------------------------------2/5-
A|-----------------------------------
E|-----------------------------------
e|-------------------------------------
B|-----3---5-5b(7)---3-------3-5-------
G|-2/4---4---------4---2-4/6-----4/6-2-
D|-------------------------------------
A|-------------------------------------
E|-------------------------------------
e|---------------------------------
B|-----3---5-5b(7)-3---3-------3---
G|-2/4---4-----------4---2-2/4---0-
D|---------------------------------
A|---------------------------------
E|---------------------------------
A Guitar Tutorial by Alan Robinson

Add comment